Heloísa Rosa - Há um lugar

Intro: 3x: C9 G
E|----------------------------------------------------------|
B|---------------8---8---7----------------------------------|
G|-----------7/9---9---9-7---------7--------------7---------|
D|---------------------------7-7h9----7/9---7-7h9----7/9----|
A|----------------------------------------------------------|
E|----------------------------------------------------------|

E|----------------------------------------------------------|
B|--------------8-8--8-8-7-7--------------------------------|
G|----------7/9--9---9-9-7-7-------7/9-7/9-7-9-7------------|
D|---------------------------7-7h9---------------9----------|
A|----------------------------------------------------------|
E|----------------------------------------------------------|

C
Há um lugar de descanso em Ti
G
Há um lugar de refrigério em Ti
C D Em
Há um lugar onde a verdade reina
C G
Esse lugar é no Senhor

( C9 G )

C
Há um lugar onde as pessoas não me influenciam
G
Há um lugar onde eu ouço o Teu espírito
C D Bm Em
Há um lugar de vitória em meio a guerra
C G
Esse lugar é no Senhor
C
Esse lugar é no Senhor
G
Esse lugar é no Senhor
C
Esse lugar é no Senhor
G
Esse lugar é no Senhor
C
Há um lugar onde a inconstância não me domina
G
Há um lugar onde minha fé é fortalecida
C D Bm Em
Há um lugar onde a paz é quem governa
C G
Esse lugar é no Senhor
C
Há um lugar onde os sonhos não se abortam
G
Há um lugar onde o temor não me enrijece
C D Em
Há um lugar que quando se perde é que se ganha
C G
Esse lugar é no Senhor
C
Esse lugar é no Senhor
G
Esse lugar é no Senhor
C
Esse lugar é no Senhor
G
Esse lugar é no Senhor
C
Esse lugar é no Senhor
G
Esse lugar é no Senhor
C
Esse lugar é no Senhor
G
Esse lugar é no Senhor

Instrumental 4x: C9 G

( C9 G )

----------------- Acordes -----------------
Bm = X 2 4 4 3 2
C = X 3 2 0 1 0
C9 = X 3 5 5 3 3
D = X X 0 2 3 2
Em = 0 2 2 0 0 0
G = 3 2 0 0 0 3